born in the city

(/) Slide Up  (\) Slide Down  (h) Hammer On  (p) Pull Off  (b) Bend (r) Release (v) Vibrato

E|--------------------------------|--------------------------------------------|--
B|--------------------------------|--------------------------------------------|--
G|--------------------------------|--------------------------------------------|--
D|--------------------------------|--------------------------------------------|--
A|--------------------------------|--------------------------------3-----------|--
E|--0--0--0--0--0--0--0--6--0--3--|--0--0--0--0--0--0--0--3--4--5-----5--4--3--|--



E|--------------------------------|----------------------------------------------|--
B|--------------------------------|----------------------------------------------|--
G|--------------------------------|----------------------------------------------|--
D|--------------------------------|--------------------------------------------3b|--
A|--------------------------------|--------------------------3-----3--5--3--5----|--
E|--0--0--0--0--0--0--0--6--0--3--|--0--0--3--0--3--5--3--5-----5----------------|--



E|------------------------------------------------|-----
B|------------------------------------------------|-----
G|------------------------------------------------|-----
D|------------------------------------------------|-----
A|------------------------------------------------|-----
E|--0--0--3--0--3--5--0--5--6--0--6--7--0--7--10--|-----



E|--------------------------------------------------------|--
B|--------------------------------------------------------|--
G|--------------------------------------------------------|--
D|--------------------------------------------------------|--
A|--------------------------------5-----------8--5--------|--
E|--0--0--3--0--3--5--0--5--6--7-----7--6--5--------6--5--|--



E|-----------------------------------|----------------------------------------|--
B|-----------------------------------|----------------------------------------|--
G|-----------------------------------|----------------------------------------|--
D|-----------------------------------|----------------------------------------|--
A|--------------------------------3--|--5--3-------------------------------3--|--
E|--0--3--5--0--5--6--0--6--7--0-----|--------6--5--3--0--3--5--5b5--3--0-----|--
http://www.guitartabcreator.com
Guitar Tab Creator is intended to store guitar tab created through the tool. It currently does not support in-line text editing. Any text you place in here will be lost. If you need to comment on your tab, please use the "Tab Notes" section located below.