In Progress

(/) Slide Up  (\) Slide Down  (h) Hammer On  (p) Pull Off  (b) Bend (r) Release (v) Vibrato

E|-------------------------------------------------------------------
B|-------------------------------------------------------------------
G|--14--13--11-----11-----9--7--6--14--13--11-----11-----------------
D|--------------0------0-----------------------0------11--13--14-----
A|-------------------------------------------------------------------
E|-------------------------------------------------------------------



E|---------------------------------------------------------------------------
B|---------------------------------------------------------------------------
G|--14--13--11-----11-----9--7--6--14--13--11-----11-------------------------
D|--------------0------0-----------------------0------11--13--14--12--11--9--
A|---------------------------------------------------------------------------
E|---------------------------------------------------------------------------



E|---------------------------------------------
B|---------------------------------------------
G|--11--11--13--14--13--11--9------------------
D|-----------------------------11--9--7--6-----
A|---------------------------------------------
E|---------------------------------------------
http://www.guitartabcreator.com
Guitar Tab Creator is intended to store guitar tab created through the tool. It currently does not support in-line text editing. Any text you place in here will be lost. If you need to comment on your tab, please use the "Tab Notes" section located below.