Gourmet Race

(/) Slide Up  (\) Slide Down  (h) Hammer On  (p) Pull Off  (b) Bend (r) Release (v) Vibrato


E|----------------------------------------------
B|----------------------------------------------
G|--12--10------------------------------10------
D|----------13--12----------10--12--13------12--
A|------------------13--10----------------------
E|----------------------------------------------



E|-------------------------------------------------
B|--13---------------------------------------------
G|------12-----------------------------------------
D|----------13--12--10--10--12--13--10--8--10------
A|---------------------------------------------10--
E|-------------------------------------------------
http://www.guitartabcreator.com
Guitar Tab Creator is intended to store guitar tab created through the tool. It currently does not support in-line text editing. Any text you place in here will be lost. If you need to comment on your tab, please use the "Tab Notes" section located below.