solo 1

(/) Slide Up  (\) Slide Down  (h) Hammer On  (p) Pull Off  (b) Bend (r) Release (v) Vibrato
E|--------------------------------------------------------------------------------------------------
B|--------------------------------------------------------------------------------------------------
G|--------------------------------------------------------------------------------------------------
D|----------12--14----------12--12--------------12--------------12--------------12--------------14--
A|------13----------15------13------13------13------13------13------13------13------13------13------
E|--15------------------12--12----------12--------------12--------------12--------------12----------



E|-----------------------------------------------------------------------------------------
B|-----------------------------------------------------------------------------------------
G|-----------------------------------------------------------------------------------------
D|--------------14--------------14--------------14-----------------------------------------
A|--15------15------15------15------15------15---------------------------------------------
E|------12--------------12--------------12----------12--15--12--15--12--15--12--16--12--17\



E|----------------------------------------------------------------------------------------------------
B|----------------------------------------------------------------------------------------------------
G|----------------------17/19-----------------------------19------------------------------------------
D|------------------16---------17---------------------17------17--------------------------------------
A|--------------15-----------------18-------------18--------------18------------------18--17--15--14--
E|--17--17--17-------------------------17--20h17----------------------17--18--17--15------------------
http://www.guitartabcreator.com
Guitar Tab Creator is intended to store guitar tab created through the tool. It currently does not support in-line text editing. Any text you place in here will be lost. If you need to comment on your tab, please use the "Tab Notes" section located below.