alva. work 1

(/) Slide Up  (\) Slide Down  (h) Hammer On  (p) Pull Off  (b) Bend (r) Release (v) Vibrato


E|--------------------------------------------------------------------------------------------
B|--------------------------------------------------------------------------------------------
G|--3--3-----3--3-----3--3-----3--3-----3--3-----3--3-----3--3-----3--3-----3--3-----3--3-----
D|--------5--------5--------5--------5--------5--------2--------3--------2--------3--------2--
A|--------------------------------------------------------------------------------------------
E|--------------------------------------------------------------------------------------------



E|-----------------------------
B|-----------------------------
G|--5--5-----5--5-----5--5-----
D|--------5--------5--------5--
A|-----------------------------
E|-----------------------------
http://www.guitartabcreator.com
Guitar Tab Creator is intended to store guitar tab created through the tool. It currently does not support in-line text editing. Any text you place in here will be lost. If you need to comment on your tab, please use the "Tab Notes" section located below.