mountains n stuff

(/) Slide Up  (\) Slide Down  (h) Hammer On  (p) Pull Off  (b) Bend (r) Release (v) Vibrato
E|-------------4-------------4-7-9-5-4-2---------9-------11------7--------------------4---
B|-5-4-5-----5---0-5-4-4-4-5-----------2------10---10-------10-9-7-10-9-7-5-4-5-----5---0-
G|-----4---4-----1-----4---------------2---11---------11---------8------------4---4-----1-
D|-----6-6-------2-----4------------------------------------------------------6-6-------2-
A|---------------------------------------9------------------------------------------------
E|-----0---------0-----0---------0-----2-------------------------7------------0---------0-



E|-----------4-7-9-5-4-2---------9-------11------7--------------0-4-5-7-5-4h--0-----------------
B|-5-4-4-4-5-----------2------10---10-------10-9-7-10-9-7-5-4-0-------0---------5/7-5-4---4-----
G|-----4---------9-----2---11---------11---------8------------------------------------------6-4-
D|-----4----------------------------------------------------------------------------------------
A|-----------------------9----------------------------------------------------------------------
E|-----0---------0-----2-------------------------7------------0-------0-----0-----------0-------



E|---------0---
B|-------4---4-
G|-------------
D|-7-6---------
A|-----4-------
E|-------------
http://www.guitartabcreator.com
Guitar Tab Creator is intended to store guitar tab created through the tool. It currently does not support in-line text editing. Any text you place in here will be lost. If you need to comment on your tab, please use the "Tab Notes" section located below.