Jonas Brothers-Please Be Mine

(/) Slide Up  (\) Slide Down  (h) Hammer On  (p) Pull Off  (b) Bend (r) Release (v) Vibrato


E|-----|--3--|-----
B|--1--|--3--|-----
G|--2--|--0--|-----
D|--2--|--2--|-----
A|-----|--2--|-----
E|-----|-----|-----



E|--3--|--0--|--3--|--
B|--3--|--0--|--3--|--
G|--0--|--0--|--0--|--
D|--0--|--2--|--2--|--
A|--2--|--2--|--2--|--
E|--3--|--0--|-----|--



E|--
B|--
G|--
D|--
A|--
E|--
http://www.guitartabcreator.com
Guitar Tab Creator is intended to store guitar tab created through the tool. It currently does not support in-line text editing. Any text you place in here will be lost. If you need to comment on your tab, please use the "Tab Notes" section located below.