Drummer boy Tab

(/) Slide Up  (\) Slide Down  (h) Hammer On  (p) Pull Off  (b) Bend (r) Release (v) Vibrato


E|----------------------------
B|----------------------------
G|----------------------------
D|----------------------------
A|--5--7\9--9--10--9--10--9v--
E|----------------------------



E|----------------------------
B|----------------------------
G|----------------------------
D|----------------------------
A|--5--7\9--9--10--9--10--9v--
E|----------------------------



E|-------------------------------------------
B|-------------------------------------------
G|-------------------------------------------
D|-------------------------------------------
A|--5--5--7\9--9--9--10--9--10--9--7--9--10--
E|-------------------------------------------



E|-------------------------------------
B|-------------------------------------
G|-------------------------------------
D|------------7--7--7--9--7------------
A|--7--9--10-----------------10--9--7--
E|-------------------------------------



E|----------------------------------------------------------------
B|----------------------------------------------------------------
G|----------------------------------------------------------------
D|------------7--7--7--9--10--9--7------9--7---------7------------
A|--7--9--10------------------------10--------10--9-----10--9--7--
E|----------------------------------------------------------------



E|-----------------------
B|-----------------------
G|--------------7--9--7--
D|--------7--9-----------
A|--7--9-----------------
E|-----------------------



E|-----------------------------------
B|-----------------------------------
G|--7--9\11--11--11--12--11--12--11--
D|-----------------------------------
A|-----------------------------------
E|-----------------------------------



E|-----------------------------------
B|-----------------------------------
G|--7--9\11--11--11--12--11--12--11--
D|-----------------------------------
A|-----------------------------------
E|-----------------------------------



E|--------------------------------------------
B|-------------10--10--10--12--10-------------
G|--9--11--12----------------------12--11--9--
D|--------------------------------------------
A|--------------------------------------------
E|--------------------------------------------



E|---------------------------------------------------------------------------
B|-------------9--9--11--12--11--9------12--12--9----------11--9-------------
G|--9--11--12-----------------------12-------------12--11---------12--11--9--
D|---------------------------------------------------------------------------
A|---------------------------------------------------------------------------
E|---------------------------------------------------------------------------
http://www.guitartabcreator.com
Guitar Tab Creator is intended to store guitar tab created through the tool. It currently does not support in-line text editing. Any text you place in here will be lost. If you need to comment on your tab, please use the "Tab Notes" section located below.