sweet child o mine

(/) Slide Up  (\) Slide Down  (h) Hammer On  (p) Pull Off  (b) Bend (r) Release (v) Vibrato


E|---------------------8p7--11p7--8--11--12/14--11--12--14/15--12--14--15--14--12------14------
B|-------8p7-----7/12--------------------------------------------------------------15------16--
G|--8h9-------9--------------------------------------------------------------------------------
D|---------------------------------------------------------------------------------------------
A|---------------------------------------------------------------------------------------------
E|---------------------------------------------------------------------------------------------

E|--12h14p12------12--
B|------------15------
G|--------------------
D|--------------------
A|--------------------
E|--------------------
Guitar Tab Creator is intended to store guitar tab created through the tool. It currently does not support in-line text editing. Any text you place in here will be lost. If you need to comment on your tab, please use the "Tab Notes" section located below.