just you and I

(/) Slide Up  (\) Slide Down  (h) Hammer On  (p) Pull Off  (b) Bend (r) Release (v) Vibrato
E|------------10p8------------------10p8-----------------7p5-----------------7p5-----
B|---------8--------8------------8--------8-----------5-------5-----------5-------5--
G|------9--------------9------9--------------9-----5-------------5-----5-------------
D|--10--------------------10--------------------7-------------------7----------------
A|-----------------------------------------------------------------------------------
E|-----------------------------------------------------------------------------------



E|-----------3p1-----------------3p1-------------------5p3------------------------
B|--------1-------1-----------1-------1-------------3-------3---------------------
G|-----2-------------2-----2-------------2-------4-------------4------------------
D|--3-------------------3-------------------3/5-------------------5------5--7--9--
A|--------------------------------------------------------------------------------
E|--------------------------------------------------------------------------------
http://www.guitartabcreator.com
Guitar Tab Creator is intended to store guitar tab created through the tool. It currently does not support in-line text editing. Any text you place in here will be lost. If you need to comment on your tab, please use the "Tab Notes" section located below.