I saw her standing there solo

(/) Slide Up  (\) Slide Down  (h) Hammer On  (p) Pull Off  (b) Bend (r) Release (v) Vibrato


E|-----------------------------------------|-----------------------------------11------11-----
B|-----------------------------------------|-------11------11------11------12------12---------
G|--10b11r10--8--------------8------8--10--|--/12------12------12------12---------------------
D|---------------10--10--10-----10---------|--------------------------------------------------
A|-----------------------------------------|--------------------------------------------------
E|-----------------------------------------|--------------------------------------------------



E|------11------11--13b14b14r13--11------
B|--13------13-----------------------13--
G|---------------------------------------
D|---------------------------------------
A|---------------------------------------
E|---------------------------------------
http://www.guitartabcreator.com
Guitar Tab Creator is intended to store guitar tab created through the tool. It currently does not support in-line text editing. Any text you place in here will be lost. If you need to comment on your tab, please use the "Tab Notes" section located below.