Give Life back to music Daft Punk

(/) Slide Up  (\) Slide Down  (h) Hammer On  (p) Pull Off  (b) Bend (r) Release (v) Vibrato

E|--------5------------------5--8----5--8--8b10----------5------------------5--8----5--8b10--
B|--5--8----------5--8----8------------------------5--8----------5--8----8-------------------
G|-------------7----------------------------------------------7------------------------------
D|-------------------------------------------------------------------------------------------
A|-------------------------------------------------------------------------------------------
E|-------------------------------------------------------------------------------------------



E|--------------------------------------------------------------------
B|--------------------------------------------------------------------
G|----5---------------------------------5-----------------------------
D|----7----7----5----7----5----7--------7----7----5----7----5----7----
A|---------8----7----8----7----8-------------8----7----8----7----8----
E|--------------------------------------------------------------------



E|--------------------------------------------------------------------------------
B|------------------------------------------------4-5-----------------------------
G|----5---------------------------------5---------4/5----5----7----5--------------
D|----7----7----5----7----5----7--------7----7-----------5----7----5----5----7----
A|---------7----5----7----5----7-------------7--------------------------7----8----
E|--------------------------------------------------------------------------------



E|----------------------------
B|----------------------------
G|--4-----7-9--7--7--5--------
D|--5--5--7/9--7--7--5--5--7--
A|-----7----------------7--8--
E|----------------------------
http://www.guitartabcreator.com
Guitar Tab Creator is intended to store guitar tab created through the tool. It currently does not support in-line text editing. Any text you place in here will be lost. If you need to comment on your tab, please use the "Tab Notes" section located below.