Get Lucky Daft Punk

(/) Slide Up  (\) Slide Down  (h) Hammer On  (p) Pull Off  (b) Bend (r) Release (v) Vibrato
E|----7----|----10----|----9-----|----7----|----7----|----10----|----9-----|----7----|----
B|----7----|----11----|----10----|----9----|----7----|----11----|----10----|----9----|----
G|----7----|----11----|----11----|----9----|----7----|----11----|----11----|----9----|----
D|---------|----------|----------|---------|---------|----------|----------|---------|----
A|---------|----------|----------|---------|---------|----------|----------|---------|----
E|---------|----------|----------|---------|---------|----------|----------|---------|----



E|--2--|--2--|--2--|--4--|--2--|--2--|--2--|--4--|--
B|--3--|--3--|--3--|--5--|--3--|--3--|--3--|--5--|--
G|--4--|--4--|--4--|--4--|--4--|--4--|--4--|--4--|--
D|-----|-----|-----|-----|-----|-----|-----|-----|--
A|-----|-----|-----|-----|-----|-----|-----|-----|--
E|-----|-----|-----|-----|-----|-----|-----|-----|--
http://www.guitartabcreator.com
Guitar Tab Creator is intended to store guitar tab created through the tool. It currently does not support in-line text editing. Any text you place in here will be lost. If you need to comment on your tab, please use the "Tab Notes" section located below.