The 1975 Chocolate

(/) Slide Up  (\) Slide Down  (h) Hammer On  (p) Pull Off  (b) Bend (r) Release (v) Vibrato
E|-----------------------------------------------------------------------
B|-----------------------------------------------------------------------
G|-----9--8--6-----6--6--6--8--------6--6--6--8--------6--6--6--8--------
D|--9-----------9--------------9--9--------------9--9--------------9-----
A|-----------------------------------------------------------------------
E|-----------------------------------------------------------------------



E|--------------------------------------------------------------------
B|--------------------------------------------------------------------
G|-----9--8--6-----6--6--6--8--------6--6--6--8--------6--6--6--8-----
D|--9-----------9--------------9--9--------------9--9--------------9--
A|--------------------------------------------------------------------
E|--------------------------------------------------------------------



E|--------------------------------------------------------------------
B|--------------------------------------------------------------------
G|-----9--8--6-----6--6--6--8--------6--6--6--8--------6--6--6--8-----
D|--9-----------9--------------9--9--------------9--9--------------9--
A|--------------------------------------------------------------------
E|--------------------------------------------------------------------



E|-----------------------------------------------------------------
B|-----------------------------------------------------------------
G|-----9--8--6-----6--6--6--8-----------6--6--6--6-----6--6--6-----
D|--9-----------9--------------9--9--9--------------9-----------9--
A|-----------------------------------------------------------------
E|-----------------------------------------------------------------



E|----------------------------------------------------------------------
B|-----------12---------------12---------------12---------------12------
G|---------------11---------------11---------------11---------------11--
D|--9--9--9----------9--9--9----------9--9--9----------9--9--9----------
A|----------------------------------------------------------------------
E|----------------------------------------------------------------------



E|----------------------------------------------------------------------
B|-----------12---------------12---------------12---------------12------
G|---------------11---------------11---------------11---------------11--
D|--9--9--9----------9--9--9----------9--9--9----------9--9--9----------
A|----------------------------------------------------------------------
E|----------------------------------------------------------------------



E|-----------11---------------11---------------11---------------11------
B|---------------12---------------12---------------12---------------12--
G|----------------------------------------------------------------------
D|--9--9--9----------9--9--9----------9--9--9----------9--9--9----------
A|----------------------------------------------------------------------
E|----------------------------------------------------------------------
http://www.guitartabcreator.com
Guitar Tab Creator is intended to store guitar tab created through the tool. It currently does not support in-line text editing. Any text you place in here will be lost. If you need to comment on your tab, please use the "Tab Notes" section located below.