changing me

(/) Slide Up  (\) Slide Down  (h) Hammer On  (p) Pull Off  (b) Bend (r) Release (v) Vibrato

E|--------------|-----------------|-----------------|--------------------------|-----
B|--------------|-----------------|-----------------|--------------------------|-----
G|--------------|-----------------|-----------------|--------------------------|-----
D|--------------|-----------------|-----------------|--------------------------|-----
A|--7-----------|-----7-----------|-----8--8--8--8--|--------------------------|-----
E|-----8--0--0--|--0-----8--0--0--|--0--------------|--5--5--5--8--8--8--8--8--|-----



E|--------------------------|--------------------|--------------------------|--------------------
B|--------------------------|--------------------|--------------------------|--------------------
G|--------------------------|--------------------|--------------------------|--------------------
D|--------------------------|--------------------|--------------------------|--------------------
A|--------------7--------5--|--------------------|--------------7--------5--|--------------------
E|--0--0--0--0-----0--0-----|--7--5--0--0--5--7--|--0--0--0--0-----0--0-----|--7--5--0--8--8--5--



E|------------------------------------------------------
B|------------------------------------------------------
G|------------------------------------------------------
D|------------------------------------------------------
A|--------------8--8--8--8--------------12--12--12--12--
E|--1--1--1--1--------------3--3--3--3------------------



E|--------------------------------------------------
B|--------------------------------------------------
G|--------------------------------------------------
D|--------------------------------------------------
A|--10--10--10--10--10--10--10--10--13--13--12--12--
E|--------------------------------------------------



E|-----------------------|--------------|-------------|--------------------
B|-----------------------|--------------|-------------|--------------------
G|-----------------------|--------------|-------------|--------------------
D|-----------------------|--------------|-------------|--------------------
A|-----------3--3--3--3--|--3--3--3--3--|--3/5--5--5--|-----------1--------
E|--5--0--3--------------|--------------|-------------|--5--1--3-----3--6--



E|--------------------|--------1--------------|-----------------5--------------------
B|--------6-----------|-----------3-----------|--------6-----------6-----6-----------
G|-----7-----7--------|-----3--------3--------|-----7-----7-----------7-----7--------
D|--------------5-----|-----------------1-----|--------------5-----------------5-----
A|--------------------|-----------------------|--------------------------------------
E|--5--------------5--|--1-----------------1--|--5-----------------------------------



E|--------1-----------------------------|--------------------------------------------
B|-----------3--------------------------|--------------------------------------------
G|-----3--------3-----------------------|--------------------------------------------
D|-----------------1--------------------|--------------------------------------------
A|--------------------------------------|--------------------------------------------
E|--1-----------------1--1--1--1--1--1--|--3--5--5--5--5--5--0--3--5--5--5--5--5-----



E|-----------------------------------------------|--------------------------------------------------
B|-----------------------------------------------|--------------------------------------------------
G|-----------------------------------------------|--------------------------------------------------
D|-----------------------------------------------|--------------------------------------------------
A|-----------------------------------------------|--6--5--5--5--6--5--5--5--------------6--5--5--5--
E|--0--3--1--1--1--1--1--0--3--1--1--1--1--1--1--|--------------------------0--0--0--0--------------



E|------------------------------|--------------------------------------------------------|--
B|------------------------------|--------------------------------------------------------|--
G|------------------------------|--------------------------------------------------------|--
D|------------------------------|--------------------------------------------------------|--
A|--6--5--5--5--15--15--15--15--|--6--5--5--5--6--5--5--5--------------------------------|--
E|------------------------------|--------------------------0--0--0--0--1--3--1--4--3--1--|--



E|-----------------------------------------------------------------------------------------------
B|-----------------------------------------------------------------------------------------------
G|-----------------------------------------------------------------------------------------------
D|-----------------------------------------------------------------------------------------------
A|-----------6--6-----------6--6--6--5--5--5-----------6--6-----------6/15--15--15--15-----------
E|--0--0--0--------0--0--0--------------------0--0--0--------0--0--0--------------------0--0--0--



E|--------------------------------------------------------|--------------------
B|--------------------------------------------------------|--------------------
G|--------------------------------------------------------|--------------------
D|--------------------------------------------------------|--------------------
A|--6--6--6--5--5--5--------------------------------------|--------------------
E|--------------------1--3--1--4--3--1--1--3--1--4--3--1--|--5--7--5--8--7--5--
http://www.guitartabcreator.com
Guitar Tab Creator is intended to store guitar tab created through the tool. It currently does not support in-line text editing. Any text you place in here will be lost. If you need to comment on your tab, please use the "Tab Notes" section located below.