Oh_No_Not_Now

(/) Slide Up  (\) Slide Down  (h) Hammer On  (p) Pull Off  (b) Bend (r) Release (v) Vibrato


E|--14----------14----------14------14----------14----------16-----
B|------14----------14----------14------14----------14-------------
G|----------14----------14------------------14----------14---------
D|-----------------------------------------------------------------
A|-----------------------------------------------------------------
E|-----------------------------------------------------------------



E|--12----------12----------12------12----------12----------15--
B|------12----------12----------12------12----------12----------
G|----------13----------13------------------13----------13------
D|--------------------------------------------------------------
A|--------------------------------------------------------------
E|--------------------------------------------------------------
http://www.guitartabcreator.com
Guitar Tab Creator is intended to store guitar tab created through the tool. It currently does not support in-line text editing. Any text you place in here will be lost. If you need to comment on your tab, please use the "Tab Notes" section located below.