Could_Be_The_Knife

(/) Slide Up  (\) Slide Down  (h) Hammer On  (p) Pull Off  (b) Bend (r) Release (v) Vibrato


E|-----------------------------------------------
B|--------------------------------5--5-----------
G|--------------------------4--6--------6--4-----
D|--------------------4--7-----------------------
A|--------------4--7-----------------------------
E|-----------------------------------------------



E|--------------------------
B|--5--5--7--0--7--7--9--7--
G|--------------------------
D|--------------------------
A|--------------------------
E|--------------------------
http://www.guitartabcreator.com
Guitar Tab Creator is intended to store guitar tab created through the tool. It currently does not support in-line text editing. Any text you place in here will be lost. If you need to comment on your tab, please use the "Tab Notes" section located below.