Afterlife Solo

(/) Slide Up  (\) Slide Down  (h) Hammer On  (p) Pull Off  (b) Bend (r) Release (v) Vibrato
E|-----------------------------------------
B|--------------5--6--8--6--5-----5--6/15--
G|--------5--7-----------------7-----------
D|-----------------------------------------
A|--5--8-----------------------------------
E|-----------------------------------------



E|-----------------------------------------
B|--------------5--6--8--6--5-----5--6/17--
G|--------5--7-----------------7-----------
D|-----------------------------------------
A|--5--8-----------------------------------
E|-----------------------------------------



E|-----------------------------------------
B|--------------5--6--8--6--5-----5--6/18--
G|--------5--7-----------------7-----------
D|-----------------------------------------
A|--5--8-----------------------------------
E|-----------------------------------------



E|--6/10\6--3--5--6--5--3-------------------------------------------------------------------
B|-------------------------6--5--3--6/10\6--3--5--6--5--3-----------------------------------
G|---------------------------------------------------------6--5--3--2--3--5--3--2-----------
D|---------------------------------------------------------------------------------5--3--2--
A|------------------------------------------------------------------------------------------
E|------------------------------------------------------------------------------------------



E|--------------------------------------------------------------------
B|--5--6/13\6--5--6--5--6/15----\6--5--6----/17--15--17b18r17--18b20--
G|--------------------------------------------------------------------
D|--------------------------------------------------------------------
A|--------------------------------------------------------------------
E|--------------------------------------------------------------------



E|--17--16--15--13--15--16--17--16--15--13--15--16--17--16--15--13------------------------------17b18--
B|------------------------------------------------------------------15----------------------15---------
G|----------------------------------------------------------------------14--------------14-------------
D|--------------------------------------------------------------------------15------15-----------------
A|------------------------------------------------------------------------------17---------------------
E|-----------------------------------------------------------------------------------------------------



E|--13--12--10--12--13--12--10--12--13--12--10------------------------------10--13--
B|----------------------------------------------11----------------------11----------
G|--------------------------------------------------10--------------10--------------
D|------------------------------------------------------12------12------------------
A|----------------------------------------------------------13----------------------
E|----------------------------------------------------------------------------------



E|--18--17--16--15--16--17--18--17--16--15\10--12--13--12--10---------------------------------15--18--
B|-------------------------------------------------------------11-------------------------16----------
G|-----------------------------------------------------------------10-----------------15--------------
D|---------------------------------------------------------------------12---------17------------------
A|-------------------------------------------------------------------------13/18----------------------
E|----------------------------------------------------------------------------------------------------



E|--17--16--15--13--15--16--17--16--15--13--------------13--17/21\17--13----------
B|------------------------------------------15------15--------------------15------
G|----------------------------------------------14----------------------------14--
D|--------------------------------------------------------------------------------
A|--------------------------------------------------------------------------------
E|--------------------------------------------------------------------------------



E|--------------------------------------
B|--------------------------------------
G|--------------------------14--15--17--
D|--------------14--15--17--------------
A|--13--15--17--------------------------
E|--------------------------------------



E|-18-17-15----------17-15-13----------------------------
B|----------18-17-15----------17-15-13-------------------
G|-------------------------------------15-14-12----------
D|----------------------------------------------15-14-12-
A|-------------------------------------------------------
E|-------------------------------------------------------



E|----------------------------------------------------20b
B|-------------------------------------------10-13b15----
G|-15/19\15-14-12-------------------------10-------------
D|----------------15-14-15/19\15-14-12-12----------------
A|-------------------------------------------------------
E|-------------------------------------------------------
http://www.guitartabcreator.com
Guitar Tab Creator is intended to store guitar tab created through the tool. It currently does not support in-line text editing. Any text you place in here will be lost. If you need to comment on your tab, please use the "Tab Notes" section located below.