Yellowjackets - Helix End Sax Solo

(/) Slide Up  (\) Slide Down  (h) Hammer On  (p) Pull Off  (b) Bend (r) Release (v) Vibrato


E|--------------10-------------13------------------16--17--
B|--10--11--13------10--14\13------13----------16----------
G|---------------------------------------------------------
D|-----------------------------------------18--------------
A|-------------------------------------18------------------
E|---------------------------------------------------------



E|--18--18/20--17--20------20------17------17------15------13-----------------
B|---------------------18------17------15------13------17------13-------------
G|-----------------------------------------------------------------12h14--12--
D|----------------------------------------------------------------------------
A|----------------------------------------------------------------------------
E|----------------------------------------------------------------------------



E|----------------------------------------------------10h11p10------10--
B|-------------------------11--11--13--13h14--13--13------------13------
G|--9--10--12--13--13--13-----------------------------------------------
D|----------------------------------------------------------------------
A|----------------------------------------------------------------------
E|----------------------------------------------------------------------



E|--12----------12----------12----------
B|------13----------13----------15--14--
G|----------14----------14--------------
D|--------------------------------------
A|--------------------------------------
E|--------------------------------------



E|------------------14--15--17------15--14--------------------------------------------------
B|--15--14--15--17--------------15----------15--17--14------15--14--------------------------
G|------------------------------------------------------14----------17--15----------14------
D|--------------------------------------------------------------------------16----------15--
A|------------------------------------------------------------------------------17----------
E|------------------------------------------------------------------------------------------



E|--------------------------------------
B|--------------------------------------
G|--------------------------------------
D|--17--16--15--14--13--12--------------
A|--------------------------15--13--12--
E|--------------------------------------



E|--------------------------------------------------
B|--------------------------------------------------
G|------10--12--13--12--13------10--12--14--12--14--
D|--10----------------------10----------------------
A|--------------------------------------------------
E|--------------------------------------------------
http://www.guitartabcreator.com
Guitar Tab Creator is intended to store guitar tab created through the tool. It currently does not support in-line text editing. Any text you place in here will be lost. If you need to comment on your tab, please use the "Tab Notes" section located below.