Safe and Sound

(/) Slide Up  (\) Slide Down  (h) Hammer On  (p) Pull Off  (b) Bend (r) Release (v) Vibrato


E|--------1p0--------------------------------------------------
B|--------3-------------1-----------------------------------1--
G|-----2----------------2--0h2--2--2--0----------0-------0-----
D|--0----------0-----2-----3-------3-----0h2--2----------------
A|----------------0----------------------3----------0h2--------
E|-------------------------------------------------------------



E|--------1p0--------------------------------
B|--------3-------------1--------1--------1--
G|-----2----------------2--2-----------0-----
D|--0----------0-----2-----3--3-----3--------
A|----------------0-----------------------3--
E|-------------------------------------------



E|--0h1--------1p0----------------0-----------------------------------------
B|--3----------3----------0h1-----1--------------------------------------1--
G|----------2----------0----------------0h2--2--2--0----------0-------0-----
D|-------0----------0----------2-----2--3-------3-----0h2--2----------------
A|------------------------0---------------------------3----------0h2--------
E|--------------------------------------------------------------------------
http://www.guitartabcreator.com
Guitar Tab Creator is intended to store guitar tab created through the tool. It currently does not support in-line text editing. Any text you place in here will be lost. If you need to comment on your tab, please use the "Tab Notes" section located below.