bridge #2 (1+1=3)

(/) Slide Up  (\) Slide Down  (h) Hammer On  (p) Pull Off  (b) Bend (r) Release (v) Vibrato


E|----------------------------------------------------------------
B|--15--15------15--15------15h17--14--14------14--14------14h15--
G|----------------------------------------------------------------
D|----------------------------------------------------------------
A|--14------14----------14---------12------12----------12---------
E|----------------------------------------------------------------



E|----------------------------------------------------------------------
B|------19--19--19--19------19------17--17------17--17--17------17------
G|----------------------------------------------------------------------
D|----------------------------------------------------------------------
A|--15--17--------------17------17--16------16--------------16------16--
E|----------------------------------------------------------------------
http://www.guitartabcreator.com
Guitar Tab Creator is intended to store guitar tab created through the tool. It currently does not support in-line text editing. Any text you place in here will be lost. If you need to comment on your tab, please use the "Tab Notes" section located below.