Clairvoyant - The Story So Far

(/) Slide Up  (\) Slide Down  (h) Hammer On  (p) Pull Off  (b) Bend (r) Release (v) Vibrato


E|------------------------------------------------------------------------
B|--13--11-----------------------------13--11-----------------------------
G|----------13--10-----------------------------13-------------------------
D|------------------13--10-------------------------10--10h11--10--13--13--
A|--------------------------13--13p11-------------------------------------
E|------------------------------------------------------------------------



E|----------------------------------------------------------------------------------------------
B|----------------------------------------------------------------------------------------------
G|----------10--13------------------------------------10--13------------------------------------
D|--13--13----------10--10--11--11--13--------13--13----------10--10--11--11--13--12\11---------
A|--------------------------------------11-----------------------------------------------11-----
E|----------------------------------------------------------------------------------------------



E|---------------------------------------------------------
B|------------------------------------------15-------------
G|----------------------------------------------16---------
D|--------------10--13--10--------------10----------17-----
A|--13--11--11--------------13--11--11---------------------
E|---------------------------------------------------------
http://www.guitartabcreator.com
Guitar Tab Creator is intended to store guitar tab created through the tool. It currently does not support in-line text editing. Any text you place in here will be lost. If you need to comment on your tab, please use the "Tab Notes" section located below.