Major Scale Form A

(/) Slide Up  (\) Slide Down  (h) Hammer On  (p) Pull Off  (b) Bend (r) Release (v) Vibrato


E|--------------------------------------------3--5--7--
B|--------------------------------------5--7-----------
G|-----------------------------4--5--7-----------------
D|--------------------4--5--7--------------------------
A|-----------3--5--7-----------------------------------
E|--3--5--7--------------------------------------------



E|--------------------------------------------5--7--9--
B|--------------------------------------7--9-----------
G|-----------------------------6--7--9-----------------
D|--------------------6--7--9--------------------------
A|-----------5--7--9-----------------------------------
E|--5--7--9--------------------------------------------



E|------------------------------------------------------8--10--12--
B|----------------------------------------------10--12-------------
G|-----------------------------------9--10--12---------------------
D|------------------------9--10--12--------------------------------
A|-------------8--10--12-------------------------------------------
E|--8--10--12------------------------------------------------------
http://www.guitartabcreator.com
Guitar Tab Creator is intended to store guitar tab created through the tool. It currently does not support in-line text editing. Any text you place in here will be lost. If you need to comment on your tab, please use the "Tab Notes" section located below.