Lesson 1

(/) Slide Up  (\) Slide Down  (h) Hammer On  (p) Pull Off  (b) Bend (r) Release (v) Vibrato

E|--------------|--------------|--------4--6--|--5--3--------|--------------|--------------
B|--------------|--------------|--3--5--------|--------6--4--|--------------|--------------
G|--------------|--------4--6--|--------------|--------------|--5--3--------|--------------
D|--------------|--3--5--------|--------------|--------------|--------6--4--|--------------
A|--------4--6--|--------------|--------------|--------------|--------------|--5--3--------
E|--3--5--------|--------------|--------------|--------------|--------------|--------6--4--



E|--------------|--------------|--------3--5--|--6--4--------|--------------|--------------
B|--------------|--------------|--4--6--------|--------5--3--|--------------|--------------
G|--------------|--------3--5--|--------------|--------------|--6--4--------|--------------
D|--------------|--4--6--------|--------------|--------------|--------5--3--|--------------
A|--------3--5--|--------------|--------------|--------------|--------------|--6--4--------
E|--4--6--------|--------------|--------------|--------------|--------------|--------5--3--
http://www.guitartabcreator.com
Guitar Tab Creator is intended to store guitar tab created through the tool. It currently does not support in-line text editing. Any text you place in here will be lost. If you need to comment on your tab, please use the "Tab Notes" section located below.