Hammer-On, Pull Off

(/) Slide Up  (\) Slide Down  (h) Hammer On  (p) Pull Off  (b) Bend (r) Release (v) Vibrato
E|-------------|-------------|-------------|-------------
B|-------------|-------------|-------------|-------------
G|-------------|-------------|-------------|-------------
D|-------------|--5/7--7--7--|--5h7--7--7--|-------------
A|--5/7--7--7--|-------------|-------------|--5h7--7--7--
E|-------------|-------------|-------------|-------------





E|-------------|-------------|------------|------------
B|-------------|-------------|------------|------------
G|-------------|-------------|------------|------------
D|-------------|-------------|------------|------------
A|--9--9\7--7--|--9--9\7--7--|--9p7--9p7--|------------
E|-------------|-------------|------------|--9p5--6h8--
3 1 3 1 4 1 1 3


E|------------|------------
B|------------|------------
G|------------|------------
D|--0h2--2p0--|------------
A|------------|--3p0--0h3--
E|------------|------------
http://www.guitartabcreator.com
Guitar Tab Creator is intended to store guitar tab created through the tool. It currently does not support in-line text editing. Any text you place in here will be lost. If you need to comment on your tab, please use the "Tab Notes" section located below.