Take my heart away

(/) Slide Up  (\) Slide Down  (h) Hammer On  (p) Pull Off  (b) Bend (r) Release (v) Vibrato
E|----------------------------------------------------------------------------------
B|------------------12v--------------------------12--11--------------11v--12\15-----
G|--------------11-------11--9--7------------11----------12--11--9v-----------------
D|--15--14--12---------------------9v--9\12-----------------------------------------
A|----------------------------------------------------------------------------------
E|----------------------------------------------------------------------------------



E|--------------------------------------------------------------------------------
B|--12--11--9---------------------------------------------------------------------
G|-------------12--11--9------------------14b14b14b14--12--14--12-----------------
D|------------------------12v--11--12\14---------------------------14v--14\15-----
A|--------------------------------------------------------------------------------
E|--------------------------------------------------------------------------------



E|------------------------------
B|------------------------------
G|------------------------------
D|--14--12----------------------
A|----------14--13--12----------
E|----------------------12v-----



E|----------------------------------
B|--11------11------11------11------
G|------12------10--------------10--
D|----------------------13----------
A|----------------------------------
E|----------------------------------



E|--------------------------------------------------------------------------------------------------
B|--11----------------------------------------------------------------------------------------------
G|------12--12--10------------------10b12--10---------------------13--------------------------------
D|------------------12--10--10\12v-------------12v--10--8--10\12------12--12/10------13--12--12-----
A|-------------------------------------------------------------------------------12-----------------
E|--------------------------------------------------------------------------------------------------



E|-------------------------------------------------------
B|-------------------------------------------------------
G|----------10--12--10/7--7--10--12--10/7--10--12--10/7--
D|--12---------------------------------------------------
A|------13-----------------------------------------------
E|-------------------------------------------------------
http://www.guitartabcreator.com
Guitar Tab Creator is intended to store guitar tab created through the tool. It currently does not support in-line text editing. Any text you place in here will be lost. If you need to comment on your tab, please use the "Tab Notes" section located below.