Supero OMEOGE SLOLOOLOLOLOO

(/) Slide Up  (\) Slide Down  (h) Hammer On  (p) Pull Off  (b) Bend (r) Release (v) Vibrato


E|-----------------------------------------
B|--10--9--7--12--9--7--9--7--5--10--7--5--
G|-----------------------------------------
D|-----------------------------------------
A|-----------------------------------------
E|-----------------------------------------



E|--------------9----------------------7------------------------------9\14--
B|------10--12-----12b14b12v-----7--9-----9b11--9h7--9h7------10--12--------
G|--11------------------------9---------------------------11----------------
D|--------------------------------------------------------------------------
A|--------------------------------------------------------------------------
E|--------------------------------------------------------------------------
http://www.guitartabcreator.com
Guitar Tab Creator is intended to store guitar tab created through the tool. It currently does not support in-line text editing. Any text you place in here will be lost. If you need to comment on your tab, please use the "Tab Notes" section located below.