SUPER ACOUSTIC SONG

(/) Slide Up  (\) Slide Down  (h) Hammer On  (p) Pull Off  (b) Bend (r) Release (v) Vibrato


E|--------------------11--12--14-----
B|--------9--10--11v-----------------
G|--7--9-----------------------------
D|-----------------------------------
A|-----------------------------------
E|-----------------------------------



E|--0-----------------3-----------------2-----------------0-----------------
B|--------------0--------------0-----------------0-----------------2--------
G|-----------0-----0--------------0--------------1--------------2-----4-----
D|--------2-----------------0--------0--------2-----2--------2-----2-----2--
A|-----2-----------------2-----------------0-----------2--0-----------------
E|--0-----------------3-----------------2-----------------------------------
http://www.guitartabcreator.com
Guitar Tab Creator is intended to store guitar tab created through the tool. It currently does not support in-line text editing. Any text you place in here will be lost. If you need to comment on your tab, please use the "Tab Notes" section located below.