sunny day

(/) Slide Up  (\) Slide Down  (h) Hammer On  (p) Pull Off  (b) Bend (r) Release (v) Vibrato
E|---7-----7-----7-----7-----7-------7-----7-----7-----7-----7-------7-----7-----7-----7-----7-------
B|-----8-----8-----8-----8-----8-------7-----7-----7-----7-----7-------7-----7-----7-----7-----7-----
G|-9-----9-----9-----9-----9-----9-8-----8-----8-----8-----8-----8-7-----7-----7-----7-----7-----7---
D|---------------------------------------------------------------------------------------------------
A|---------------------------------------------------------------------------------------------------
E|---------------------------------------------------------------------------------------------------



E|---5-----5-----5-----5-----5-----
B|-----5-----5-----5-----5-----5---
G|-6-----6-----6-----6-----6-----6-
D|---------------------------------
A|---------------------------------
E|---------------------------------



E|--------------13--12--10--------------12--10---------------------------------
B|--10--10--10----------------------------------13--------------13--12--10-----
G|--------------------------12--12--12--------------10--10--10-----------------
D|-----------------------------------------------------------------------------
A|-----------------------------------------------------------------------------
E|-----------------------------------------------------------------------------



E|----------------------------------------------------------------------------
B|-------------------12-10----------12-13\------------------------------------
G|----------14-12-10-------12-12\14----------------------13-16-15-13-16-15-13-
D|-12-12-12-------------------------------15-14-12-12\14----------------------
A|----------------------------------------------------------------------------
E|----------------------------------------------------------------------------



E|---------------------------------------------------------------------------------------
B|-------------------------------------------13-13-14-13-11-13-11----11------------------
G|-15-13-12-15-13-12-13-12-10-13-12-10-10\12----------------------13----13-12-13-12-9-10-
D|---------------------------------------------------------------------------------------
A|---------------------------------------------------------------------------------------
E|---------------------------------------------------------------------------------------
http://www.guitartabcreator.com
Guitar Tab Creator is intended to store guitar tab created through the tool. It currently does not support in-line text editing. Any text you place in here will be lost. If you need to comment on your tab, please use the "Tab Notes" section located below.