ssuper mega solo

(/) Slide Up  (\) Slide Down  (h) Hammer On  (p) Pull Off  (b) Bend (r) Release (v) Vibrato

E|-----------------------------------------------------------------------------------12--13--15--16--
B|---------10-10-----------------13--12--10v--15--13--10v--17--13--10v--18--13--10v------------------
G|--9--12----b12--12v--12\14--14/--------------------------------------------------------------------
D|---------------------------------------------------------------------------------------------------
A|---------------------------------------------------------------------------------------------------
E|---------------------------------------------------------------------------------------------------



E|--15--14--------------14--15--17----------------------13--15--16--
B|----------12--15--17--------------------------15--17--------------
G|--------------------------------------17--19----------------------
D|------------------------------------------------------------------
A|----------------------------------19------------------------------
E|------------------------------------------------------------------
http://www.guitartabcreator.com
Guitar Tab Creator is intended to store guitar tab created through the tool. It currently does not support in-line text editing. Any text you place in here will be lost. If you need to comment on your tab, please use the "Tab Notes" section located below.