save

(/) Slide Up  (\) Slide Down  (h) Hammer On  (p) Pull Off  (b) Bend (r) Release (v) Vibrato


E|----------------------------------------------------------------------------------------------------
B|----------------------------------------------------------------------------------------------------
G|-----------------------------------------------------------------\11v--12--11--9--12--11--9--7--11--
D|--7--7--9--9--7--7--6--6--4--4--4--12--12--14--14--12--12--11--11-----------------------------------
A|----------------------------------------------------------------------------------------------------
E|----------------------------------------------------------------------------------------------------



E|--------------------------------------------
B|--------------------------------------------
G|--9--7--6--6\9v---------------------11v-----
D|---------------------------------7----------
A|---------------------------7--9-------------
E|-----------------7--9--10-------------------
http://www.guitartabcreator.com
Guitar Tab Creator is intended to store guitar tab created through the tool. It currently does not support in-line text editing. Any text you place in here will be lost. If you need to comment on your tab, please use the "Tab Notes" section located below.