pleasure 1 solo

(/) Slide Up  (\) Slide Down  (h) Hammer On  (p) Pull Off  (b) Bend (r) Release (v) Vibrato

E|-------------------------------------------------------------------------
B|--8-----8--10--8------------------------------------------------------8--
G|--7--7------------7--9--9--7------9--7------9--7------7--9--7--9--11-----
D|------------------------------10--------10--------10---------------------
A|-------------------------------------------------------------------------
E|-------------------------------------------------------------------------



E|------------------------5--7--8-----
B|-----8--10b10b10--8--8--------------
G|--7---------------------------------
D|------------------------------------
A|------------------------------------
E|------------------------------------
http://www.guitartabcreator.com
Guitar Tab Creator is intended to store guitar tab created through the tool. It currently does not support in-line text editing. Any text you place in here will be lost. If you need to comment on your tab, please use the "Tab Notes" section located below.