maggots of truth- first song-intro- outro

(/) Slide Up  (\) Slide Down  (h) Hammer On  (p) Pull Off  (b) Bend (r) Release (v) Vibrato

Stave 1:

E|-----------------------------------------------------------------
B|-----------------1------------------------------1----------------
G|-------------------2------------------------------2--------2b3b2-
D|-----3-----2---------3-2v-3-2-0-----3-----2---------3-2v-3-------
A|-----------------------------------------------------------------
E|-0-0---0-0---0-0----------------0-0---0-0---0-0------------------

Stave 2:

E|---------------------------------------------------------------
B|-----------------1---------------------------------------------
G|-------------------2-------------------------------------------
D|-----3-----2---------3-2v-3-2-0-----3-------------2-3-2-3-2-5v-
A|------------------------------------------3-----5--------------
E|-0-0---0-0---0-0----------------3-3---3-3---3-3----------------

Stave 3:

E|-----------------------------------------------------------------------
B|-----------------------------------------------------------------------
G|---------------------------------------------------------------5h7-5---
D|-----8------------------7-8-10-8-7-----7-----------------5-7-8-------7\
A|-----------8-----7-8-10----------------------7-----4-5-7---------------
E|-8-8---8-8---8-8-------------------7-7---7-7---7-7---------------------

http://www.guitartabcreator.com
Guitar Tab Creator is intended to store guitar tab created through the tool. It currently does not support in-line text editing. Any text you place in here will be lost. If you need to comment on your tab, please use the "Tab Notes" section located below.