Funk Jimy Alex Hendriz lol solo

(/) Slide Up  (\) Slide Down  (h) Hammer On  (p) Pull Off  (b) Bend (r) Release (v) Vibrato


E|--------------------------------------------------------------------------------------12v--
B|-----------------------------14b16--16--16--16--16--16--16/14--12--------------------------
G|--9--14--12------12--14--12------------------------------------14b16-----------------------
D|--9----------14-------------------------------------------------------16--14--12--14-------
A|--7----------------------------------------------------------------------------------------
E|-------------------------------------------------------------------------------------------



E|--12v--12--15--15--12-------------------------------------------------------
B|-------12--------------15--12------12--15--12-------------------------------
G|-------------------------------14--------------14--12------12--14--12-------
D|-------------------------------------------------------14--------------14v--
A|----------------------------------------------------------------------------
E|----------------------------------------------------------------------------



E|--------------------------
B|--------------------------
G|--------------13--14--16--
D|--12--14--15--------------
A|--------------------------
E|--------------------------
http://www.guitartabcreator.com
Guitar Tab Creator is intended to store guitar tab created through the tool. It currently does not support in-line text editing. Any text you place in here will be lost. If you need to comment on your tab, please use the "Tab Notes" section located below.