Edit this one 21-09-2013

(/) Slide Up  (\) Slide Down  (h) Hammer On  (p) Pull Off  (b) Bend (r) Release (v) Vibrato


E|--12--15--14--12--15--14--12--12--12v--10--10--10------------------------------
B|---------------------------------------10--10--12b13--12--10--12---------------
G|------------------------------------------------------------------0--4--4v-----
D|-------------------------------------------------------------------------------
A|-------------------------------------------------------------------------------
E|-------------------------------------------------------------------------------



E|--------------------------------------17--17b19--17--15--14------14h17h14--14h15h15-------
B|-----------------------12--14--15\17-------------------------17----------------------17v--
G|--7v-------11--12--14---------------------------------------------------------------------
D|------\12---------------------------------------------------------------------------------
A|------------------------------------------------------------------------------------------
E|------------------------------------------------------------------------------------------
http://www.guitartabcreator.com
Guitar Tab Creator is intended to store guitar tab created through the tool. It currently does not support in-line text editing. Any text you place in here will be lost. If you need to comment on your tab, please use the "Tab Notes" section located below.