EDIT THIS NO MATTER WHAT YOU THINK

(/) Slide Up  (\) Slide Down  (h) Hammer On  (p) Pull Off  (b) Bend (r) Release (v) Vibrato
E|--19--18--17--15--17--15--------------------------------------------------------------------
B|--------------------------17--16--15--12--15--12------12--15--12-12--12------12-12--12------
G|--------------------------------------------------15------------b14------14----b14------14--
D|--------------------------------------------------------------------------------------------
A|--------------------------------------------------------------------------------------------
E|--------------------------------------------------------------------------------------------



E|----------------------------------------------------------------------------------12----------------
B|--12-12--12------12-------------------------------------------------------12--15------15--15b17-----
G|----b14------14------14--12------12--14--12--14b16--12h14h12------12--14----------------------------
D|-----------------------------14-------------------------------14------------------------------------
A|----------------------------------------------------------------------------------------------------
E|----------------------------------------------------------------------------------------------------



E|------------------------------------------------------------14--13--12------------------------------
B|--12h15h12--------------------------12--13--14--15--14--12--------------15--12------12--14--12--12--
G|------------14--12------12--13--14----------------------------------------------14------------------
D|--------------------14------------------------------------------------------------------------------
A|----------------------------------------------------------------------------------------------------
E|----------------------------------------------------------------------------------------------------



E|----------------------------------------------------------------------------------------------------------------------
B|--15--14--11------------------------------------------------------------------------------------------14--15--17--15--
G|--------------14--13--11------------------------------------------------------12--14--15--14--15--17------------------
D|--------------------------14--13--12------12h15h12------12h14h12------12--15------------------------------------------
A|--------------------------------------15------------15------------15--------------------------------------------------
E|----------------------------------------------------------------------------------------------------------------------
http://www.guitartabcreator.com
Guitar Tab Creator is intended to store guitar tab created through the tool. It currently does not support in-line text editing. Any text you place in here will be lost. If you need to comment on your tab, please use the "Tab Notes" section located below.