bring to yo the world 2 solo

(/) Slide Up  (\) Slide Down  (h) Hammer On  (p) Pull Off  (b) Bend (r) Release (v) Vibrato
E|--------------------------------------------------------------------------------------
B|--------------------------------------------------------------------------------------
G|--------------------------------------------------------------------------------------
D|--------------------------------3--0--5--0--------------------------------------------
A|--------------------3--0--5--0--------------------5--------3--------------------------
E|--0--0--3--0--0--5--------------------------0--0-----0--0-----5--5--5--5--5--5--5--3--



E|------------------------------------------------------------------------------------------------
B|------------------------------------------------------------------------------------------------
G|------------------------------------------------------------------------------------------------
D|------------------------------------------------------------------------------------------------
A|--------------------------------------------------------------------------5--4--3---------------
E|--0--0--3--0--0--5--0--0--3--0--0--7--0--0--5--3--0--0--5--0--0--3--0--0-----------7--6--5--3v--



E|------------------------------------------------------------------------------------
B|------------------------------------------------------------------------------------
G|---------------------------------------------------------------------------7v-------
D|--------------------------------------3--0b5--5--5--5--5--3------3--3\5b5------5b5--
A|--------------------------3--0--5--0-------------------------5v---------------------
E|--0--0--3--0--0--5--0--0------------------------------------------------------------



E|----------------------------------------------------------------------------------------------
B|----------------------------------------------------------------------------------------------
G|------------------------------------5--3--2---------------------------------------------------
D|--3--3--3----3b5--3--3--3--3--3--3-----------5--3--5--3\12b12--12--12--10--12--10------10-----
A|-----------5b----------------------------------------------------------------------12---------
E|----------------------------------------------------------------------------------------------



E|--------------------------
B|--------------------------
G|--------------------------
D|--------------------------
A|--10--12--10------10------
E|--------------12------12--
http://www.guitartabcreator.com
Guitar Tab Creator is intended to store guitar tab created through the tool. It currently does not support in-line text editing. Any text you place in here will be lost. If you need to comment on your tab, please use the "Tab Notes" section located below.