bring to yo the world 1 solo

(/) Slide Up  (\) Slide Down  (h) Hammer On  (p) Pull Off  (b) Bend (r) Release (v) Vibrato


E|----------------------------------------------------------------------------------
B|----------------------------------------------------------------------------------
G|----------------------------------12----------------------------------------------
D|------------------10--12--13--12------13--12--10--------------------------15--13--
A|------10--12--13----------------------------------12--10--------------13----------
E|--12------------------------------------------------------10--12--13--------------



E|-----------------------------------------------------------------------------
B|-----------------------------------------------------------------------------
G|--15-----------------------------------------12------------------------------
D|------13--15--13--12v--13--15h13--12--12\14------15--14--12--11v--11/0----7--
A|--------------------------------------------------------------------------7--
E|--------------------------------------------------------------------------5--



E|--------------------------------------------------------------------------------------
B|--------------------------------------------------------------------------------------
G|--------------14--------------15--------------13--------------12--10--9--10--9--7--6--
D|--15--13--12------15--13--12------15--13--12------15--13--12--------------------------
A|--------------------------------------------------------------------------------------
E|--------------------------------------------------------------------------------------
http://www.guitartabcreator.com
Guitar Tab Creator is intended to store guitar tab created through the tool. It currently does not support in-line text editing. Any text you place in here will be lost. If you need to comment on your tab, please use the "Tab Notes" section located below.