best song ever

(/) Slide Up  (\) Slide Down  (h) Hammer On  (p) Pull Off  (b) Bend (r) Release (v) Vibrato


E|----------------------------------12v--15b17--15--12------12----------------------------------
B|--5----8------10--------------------------------------15------15--12--15--12------12----------
G|--7b9--10b12--12b14--12b14b12--9----------------------------------------------14------14--12--
D|----------------------------------------------------------------------------------------------
A|----------------------------------------------------------------------------------------------
E|----------------------------------------------------------------------------------------------



E|----------------------------------12b13--12v--12--12--15--15--14--14----------14--14--17b19--
B|-----------------------------5----------------------------------------15--15-----------------
G|--14--12------12--14--12--9--7b9-------------------------------------------------------------
D|----------14---------------------------------------------------------------------------------
A|---------------------------------------------------------------------------------------------
E|---------------------------------------------------------------------------------------------



E|--19--17-------------------------14--14--15--15--17--17--15--15--17--17--19b21--19v-----
B|----------20--19--17------17------------------------------------------------------------
G|----------------------19--19b21---------------------------------------------------------
D|----------------------------------------------------------------------------------------
A|----------------------------------------------------------------------------------------
E|----------------------------------------------------------------------------------------



E|--17h19h17--15h17h15--15----------
B|----------------------17b19--17v--
G|----------------------------------
D|----------------------------------
A|----------------------------------
E|----------------------------------
http://www.guitartabcreator.com
Guitar Tab Creator is intended to store guitar tab created through the tool. It currently does not support in-line text editing. Any text you place in here will be lost. If you need to comment on your tab, please use the "Tab Notes" section located below.