best song edit this one

(/) Slide Up  (\) Slide Down  (h) Hammer On  (p) Pull Off  (b) Bend (r) Release (v) Vibrato
E|--------------------------------------------------------------------------------------------------
B|--1h3h1-------------------------------------------------------------------------------------------
G|---------3-----------3-----3\5--3--3h5h3--5\7-----------------------------------------------------
D|---------3--3-----------3--3-------------------5--------3-----3--3\5--3---------------------------
A|---------------1--1-------------------------------5--1-----0-------------3h5h3--------5-----6--5--
E|--------------------------------------------------------------------------------6--3-----3--------



E|-----------------------
B|-----------------------
G|-----------------------
D|--3--------------------
A|-----6--5--3-----------
E|--------------5--6-----



E|-----------------------------------------------------------------------
B|--1h3h1-------------------------------------3--------------1-----------
G|---------3-----------3-----3\5--3--------------2--------3-----2--------
D|---------3--3-----------3--3-------3--------3-----3--------3-----3-----
A|---------------1--1-------------------5--1-----------1--1-----------1--
E|-----------------------------------------------------------------------
http://www.guitartabcreator.com
Guitar Tab Creator is intended to store guitar tab created through the tool. It currently does not support in-line text editing. Any text you place in here will be lost. If you need to comment on your tab, please use the "Tab Notes" section located below.