beatiful luck 2

(/) Slide Up  (\) Slide Down  (h) Hammer On  (p) Pull Off  (b) Bend (r) Release (v) Vibrato

E|-------------------------------------------------------------------------------------------------
B|---------------------------------------------------------------------------------7---------------
G|-------------------------------------------------------------------------------------------------
D|-------------12--11--9--11--9--7--9--7--6--6------------------------------11--9-----9--7--6v-----
A|--9--11--12-----------------------------------7--7\9v--11--9--7--------9-------------------------
E|-----------------------------------------------------------------9--7----------------------------



E|-------------------------------------------------------------------
B|---------------------------------------------------------------12--
G|--------------7--9b9--7--9--7-----------------7--9b9--7--9--7------
D|--------7--9-------------------9--------7--9-----------------------
A|--7--9----------------------------7--9-----------------------------
E|-------------------------------------------------------------------



E|--
B|--
G|--
D|--
A|--
E|--
http://www.guitartabcreator.com
Guitar Tab Creator is intended to store guitar tab created through the tool. It currently does not support in-line text editing. Any text you place in here will be lost. If you need to comment on your tab, please use the "Tab Notes" section located below.