beatiful luck 1

(/) Slide Up  (\) Slide Down  (h) Hammer On  (p) Pull Off  (b) Bend (r) Release (v) Vibrato

E|--7--------7--------5--------3--------
B|-----8--------8--------7--------5-----
G|--------9--------9--------7--------5--
D|--------------------------------------
A|--------------------------------------
E|--------------------------------------



E|--7--------7--------5--------3--------3--------2----------------------------------------5-------
B|-----8--------8--------7--------5--------5--------4----------------------------------------3----
G|--------9--------9--------7--------5--------5--------2--4--4\7--5--4--2-----2--4--5--4----------
D|-------------------------------------------------------------------------4----------------------
A|------------------------------------------------------------------------------------------------
E|------------------------------------------------------------------------------------------------



E|--7--------7--------5--------3-----------
B|-----8--------8--------7--------5--------
G|--------9--------9--------7--------5-----
D|-----------------------------------------
A|-----------------------------------------
E|-----------------------------------------



E|--7--------7--------5--------3--------3--------2--------2--------------------
B|-----8--------8--------7--------5--------5--------4--------4h0-------------3/
G|--------9--------9--------7--------5--------5--------4----------4h2--4--5----
D|-----------------------------------------------------------------------------
A|-----------------------------------------------------------------------------
E|-----------------------------------------------------------------------------
http://www.guitartabcreator.com
Guitar Tab Creator is intended to store guitar tab created through the tool. It currently does not support in-line text editing. Any text you place in here will be lost. If you need to comment on your tab, please use the "Tab Notes" section located below.