26-10-2013 super solo

(/) Slide Up  (\) Slide Down  (h) Hammer On  (p) Pull Off  (b) Bend (r) Release (v) Vibrato
E|-------------------------------------------------------------\15b17-----
B|------------------------------------------------------------------------
G|------\12b14--12--12--10--10--9--9--9--10--10--9--9--7--7--7/-----------
D|------------------------------------------------------------------------
A|------------------------------------------------------------------------
E|--0--0------------------------------------------------------------------



E|--15--13--12h13h12------12----------------------------------12--15--15b17--13--15--13--15b17--
B|--------------------15------15--13--------------12--13--15------------------------------------
G|------------------------------------14--12--14------------------------------------------------
D|----------------------------------------------------------------------------------------------
A|----------------------------------------------------------------------------------------------
E|----------------------------------------------------------------------------------------------



E|--
B|--
G|--
D|--
A|--
E|--



E|--13--15--13--12--13--12--10--10-------------------------------------------------------------
B|------------------------------13b15--13b15b13--13--10-----10--13h10--13h10-------------------
G|---------------------------------------------------12b14--------------------12h10--12h10-----
D|---------------------------------------------------------------------------------------------
A|---------------------------------------------------------------------------------------------
E|---------------------------------------------------------------------------------------------



E|-----------17-----17--20--20b21--20--20--20--20--------
B|------10v--20b21---------------------------------------
G|-------------------------------------------------------
D|-------------------------------------------------------
A|--12---------------------------------------------------
E|-------------------------------------------------------
http://www.guitartabcreator.com
Guitar Tab Creator is intended to store guitar tab created through the tool. It currently does not support in-line text editing. Any text you place in here will be lost. If you need to comment on your tab, please use the "Tab Notes" section located below.