1st song ever

(/) Slide Up  (\) Slide Down  (h) Hammer On  (p) Pull Off  (b) Bend (r) Release (v) Vibrato

E|------------------------------------------------------------------------------------------
B|------------------------------------------------------------------------------------------
G|-------------------7b8-5-----------------------3-------------------------------10v-\12v---
D|-3-3-3-3-3-3-3-3-5-------6-5h6h5-3-5-----3-5-6---6-5--------------9-10-12-9-12------------
A|-3-3-3-3-3-3-3-3-5-------------------3-5-------------3\10-8-10-11-------------------------
E|-1-1-1-1-1-1-1-1-3------------------------------------------------------------------------



E|----------------------------------------------------------12-------------------------------
B|------------------------------------------------------12------15--12--12h13h12--10--12-----
G|--15--13--12--10--12--10--12----------------------14---------------------------------------
D|----------------------------------------------15-------------------------------------------
A|------------------------------17--15--14--14-----------------------------------------------
E|-------------------------------------------------------------------------------------------
http://www.guitartabcreator.com
Guitar Tab Creator is intended to store guitar tab created through the tool. It currently does not support in-line text editing. Any text you place in here will be lost. If you need to comment on your tab, please use the "Tab Notes" section located below.