mind your head

(/) Slide Up  (\) Slide Down  (h) Hammer On  (p) Pull Off  (b) Bend (r) Release (v) Vibrato


E|----------------------------------------------------------------------------------------
B|----------------------------------------------------------------------------------------
G|----------------------------------------------------------------------------------------
D|----------------------------------------------------------------------------------------
A|----------------------------------------------------------------------------------------
E|--0--0--0----0--0--0----8--8--8----8--8--8----7--7--7----7--7--7----5--5--5----5--5--5-- intro



E|--------------------------------------------------------------------------------------------
B|--------------------------------------------------------------------------------------------
G|--------------------------------------------------------------------------------------------
D|--------------------------------------------------------------------------------------------
A|--------------------------------8--7--5--0--------------------------------0--------1-------- verse
E|--11\0--0--0--0--0--11\0--0--0--------------6--5--3--0--11\0--0--0--0--0-----2--1-----2--1--riff



E|-----------------------------------------------------------------------
B|-----------------------------------------------------------------------
G|-----------------------------------------------------------------------
D|-----------------------------------------------------------------------
A|----------------------------------------------------------------------- bridge
E|--13--0--12--0--10--0--13--12--10--0--0--0--13--12--0--13--13--13--13--



E|--------------
B|--------------
G|--------------
D|--------------
A|--------------
E|--0--8--7--5-- chorus



E|--------------------------------------------------------
B|--------------------------------------------------------
G|--------------------------------------------------------
D|--------------------------------------------------------
A|--------------------------------------------6--5-------- bass bit and breakdown scale
E|--0--0--0--0--0--0--0--0--0--0--1--4--3--1--------6--5--



E|------------------------------------------------
B|------------------------------------------------
G|------------------------------------------------
D|------------------------------------------------
A|------------------------------------1-----------
E|--0--0--0--13--10--13--12--0--0--0-----4--1--4-- breakdown pt2



E|--------------
B|--------------
G|--------------
D|-------------- end chorus, another breakdown after
A|--------------
E|--0--8--7--5--
http://www.guitartabcreator.com
Guitar Tab Creator is intended to store guitar tab created through the tool. It currently does not support in-line text editing. Any text you place in here will be lost. If you need to comment on your tab, please use the "Tab Notes" section located below.