Living

(/) Slide Up  (\) Slide Down  (h) Hammer On  (p) Pull Off  (b) Bend (r) Release (v) Vibrato


E|-----------------------------------------------------------------------
B|-----------------------------------------------------------------------
G|-----------------------------------------------------------------------
D|-----------------------------------------------------------------------
A|--------3--6--6--------------3--3--6--------3--6--6--6--5-----6--5-----
E|--0--0-----------0--0--0--0-----------0--0-----------------6--------3-- Intro



E|--------------------------------------------------------------------------------------
B|--------------------------------------------------------------------------------------
G|--------------------------------------------------------------------------------------
D|--------------------------------------------------------------------------------------
A|--------------------------------------------------------------------------5-----------
E|--0--0--0--0--0--0--0--0--0--0--8--8--8--7--0--0--0--0--0--0--0--0--0--0-----8--5--8-- Verse



E|-----------------------------------------------------------------------------------------
B|-----------------------------------------------------------------------------------------
G|-----------------------------------------------------------------------------------------
D|-----------------------------------------------------------------------------------------
A|----------------------------------8--7--5--------------8--7--10--------------------------
E|--0--0--0--0--0--0--0--0----0--0-----------0--0--0--0------------8--8--8--8--1--1--1--1-- Chorus



E|---------------------------------------------------------------
B|---------------------------------------------------------------
G|---------------------------------------------------------------
D|---------------------------------------------------------------
A|--------8--7--5--------------8--7--10-------------------------- Chorus
E|--0--0-----------0--0--0--0------------8--8--8--8--5--5--1--1--



E|-----------------------------------------------------------------------------------------------
B|-----------------------------------------------------------------------------------------------
G|-----------------------------------------------------------------------------------------------
D|-----------------------------------------------------------------------------------------------
A|-----6--------6--------6--------------------------------6--------6-----------------------------
E|--0-----0--0-----0--0-----0--0--0--0--0--0--0--0--0--0-----0--0-----0--8--8--8--8--5--5--5--5--
Breakdown


E|-------------------------
B|-------------------------
G|-------------------------
D|------------------------- Epicish outro
A|-------------------------
E|--5--8--12--3--5--8--12--



E|-----------
B|-----------
G|-----------
D|-----------
A|----------- Fake build up section.
E|--8--7--0--
http://www.guitartabcreator.com
Guitar Tab Creator is intended to store guitar tab created through the tool. It currently does not support in-line text editing. Any text you place in here will be lost. If you need to comment on your tab, please use the "Tab Notes" section located below.