Line After Line

(/) Slide Up  (\) Slide Down  (h) Hammer On  (p) Pull Off  (b) Bend (r) Release (v) Vibrato


E|------------------------------------------------------------------------------------------------------
B|------------------------------------------------------------------------------------------------------
G|------------------------------------------------------------------------------------------------------
D|------------------------------------------------------------------------------------------------------
A|------------------------------------------------------------------------------------------------------
E|--13--12--13--12--13--12--13--12--13--12--13--12--13--12--13--12--13--12--13--12--13--12--13--12--13--



E|--------------------------------------------------------------------------------------------------
B|--------------------------------------------------------------------------------------------------
G|--------------------------------------------------------------------------------------------------
D|--------------------------------------------------------------------------------------------------
A|--------------------------------------------------------------------------------------------------
E|--13--12--13--12--1--4--3--1--13--12--13--12--13--12--13--12--13--12--13--12--13--12--13--12--13--



E|------------------------------------------------------------------------------------------------------
B|------------------------------------------------------------------------------------------------------
G|------------------------------------------------------------------------------------------------------
D|------------------------------------------------------------------------------------------------------
A|------------------------------------------------------------------------------------------------------
E|--12--13--12--13--12--13--12--13--12--13--12--1--4--3--1--4--7--6--4--13--12--13--12--13--12--13--12--



E|------------------------------------------------------------------------------
B|------------------------------------------------------------------------------
G|------------------------------------------------------------------------------
D|------------------------------------------------------------------------------
A|------------------------------------------------------------------------------
E|--13--12--13--12--13--12--13--12--13--12--13--12--13--12--13--12--13--12--13--1--4-3-1



E|-----------------------------
B|-----------------------------
G|-----------------------------
D|----------------------------- "so much blood you can taste the iron"
A|-----------------------------
E|--3--3--3--3--3--3--3--3--3--



E|--------------------------------------------------------------------
B|--------------------------------------------------------------------
G|--------------------------------------------------------------------
D|--------------------------------------------------------------------
A|--6--5--0--6--5-----------------6--5--0-----------8--5--0-----------
E|-----------------6--5--0--3--0-----------6--5--0-----------6--3--0-- Verse Riff



E|--------------------
B|--------------------
G|--------------------
D|-------------------- End of verse riff
A|--------------------
E|--3--1--4--3--1--4--



E|--------------
B|--------------
G|--------------
D|--------------
A|--------------
E|--0--5--8--7-- CHorus



E|--------------------------------------------------------------------------------------------
B|--------------------------------------------------------------------------------------------
G|--------------------------------------------------------------------------------------------
D|--------------------------------------------------------------------------------------------
A|--------------------------------------------5-----------------------------------------------
E|--0--0--1--1--0--0--1--1--0--0--1--1--0--0-----0--0--1--1--0--0--1--1--0--1--0--1--3--0--4-- Breakdown



E|----------------
B|----------------
G|----------------
D|----------------
A|---------------- Varying rythms but easy enough
E|--5--8--12--10--



E|--------
B|--------
G|--------
D|--------
A|--------
E|--5--1-- Last section of song
http://www.guitartabcreator.com
Guitar Tab Creator is intended to store guitar tab created through the tool. It currently does not support in-line text editing. Any text you place in here will be lost. If you need to comment on your tab, please use the "Tab Notes" section located below.