and keep walking away

(/) Slide Up  (\) Slide Down  (h) Hammer On  (p) Pull Off  (b) Bend (r) Release (v) Vibrato


E|-----------------------------------------------------------------
B|-----------------------------------------------------------------
G|-----------------------------------------------------------------
D|-----------------------------------------------------------------
A|--------------------5--5-----------------------------5--5--5--5--
E|--0--1--4--3--1--0--------8--7--5--0--1--4--3--1--0-------------- verse riff



E|---------------------------------------------------------------------------
B|---------------------------------------------------------------------------
G|---------------------------------------------------------------------------
D|---------------------------------------------------------------------------
A|---------------------------------------------------------------------------
E|--8--3--6--0--8--0--1--10--13--0--1--0--1--8--3--6--0--1--0--1--8--10--13-- chorus



E|--------------------
B|--------------------
G|--------------------
D|-------------------- one more verse riff then this is verse breakdown
A|--------------------
E|--0--1--4--3--1--0--



E|-----------------
B|-----------------
G|-----------------
D|-----------------
A|-----------------
E|--0--3--5--3--1-- epic section (follows dan)



E|-----------------------------------------------------------------------------------
B|-----------------------------------------------------------------------------------
G|----------------------------------------------------------------------------------- post 2nd
D|----------------------------------------------------------------------------------- chorus
A|--6--5--------------------------6--5-----------------------6--5-------------------- breakdown
E|--------6--5--0--0--0--0--0--0--------6--5--0--0--0--3--0--------6--5--0--0--0--0--



E|---------------------------
B|---------------------------
G|---------------------------
D|---------------------------
A|---------------------------
E|--1--1--1--13--1--8--5--3-- outro
http://www.guitartabcreator.com
Guitar Tab Creator is intended to store guitar tab created through the tool. It currently does not support in-line text editing. Any text you place in here will be lost. If you need to comment on your tab, please use the "Tab Notes" section located below.