Dueling Guitars

(/) Slide Up  (\) Slide Down  (h) Hammer On  (p) Pull Off  (b) Bend (r) Release (v) Vibrato
E|-12v--7v--12v--5v--------12v--x2-----------------12v-x2------------------
B|-------------------------12v--x2-----------------12v-x2------------------
G|-------------------------12v--x2-----------------12v-x2------------------
D|--------------------2/4--12v--x2--5\4-2-0----2/4-12v-x2--5\4-2-0---------
A|------------------------------------------------------------------0h2----
E|-------------------------------------------------------------------------


chorus
E|--5-7-7-5-7---x2-.---------------0--------------------0----------.------------------.---------
B|-----------------.--------------0-0------------------0-0---------.------------------.---------
G|-----------------.-------------0--------------------0------------.------------------.---------
D|-----------------.----2-4-4-2-4------2p0---2-4-4-2-4-----2p0-0p2-.--7-5-4-2-0--(x10).---------
A|-----------------.-----------------------------------------------.--7-5-4-2-0--(x10).----------
E|-----------------.-----------------------------------------------.--7-5-4-2-0--(x10).----------



E|-2/4-5p4-2p0-2/4----2/4-5p4-2p0-2/4------------c-x2------------------------------
B|------------------------------------0h2-4-5-0--h-x2------------------------------
G|------------------------------------0h2-4-5-0--o-x2------------------------------
D|-2/4-5p4-2p0-2/4----2/4-5p4-2p0-2/4------------r-x2--2h4-5p4-2p02h4-5p4-2p0-7/9--
A|-----------------------------------------------u-x2------------------------------
E|-----------------------------------------------s-x2------------------------------



E|--11-12-13-12-11-9-7-----------.-2-4-4-2-4--2p0-2p0-2-4-4-2-4--2p0-2p0--c---
B|-------------------------------.----------------------------------------h---
G|-------------------------------.----------------------------------------o---
D|--11-12-13-12-11-9-7-----------.----------------------------------------r---
A|-------------------------------.----------------------------------------u---
E|-------------------------------.----------------------------------------s---
Guitar Tab Creator is intended to store guitar tab created through the tool. It currently does not support in-line text editing. Any text you place in here will be lost. If you need to comment on your tab, please use the "Tab Notes" section located below.