Sous de paris

(/) Slide Up  (\) Slide Down  (h) Hammer On  (p) Pull Off  (b) Bend (r) Release (v) Vibrato
E|-----------------5--------------------5-------------------------------------------------------
B|--------5--6--8-----8--6--5--------------8--8--6--5----------------------------5--------------
G|-----7-----------------------7--5--------------------7--5----------------6--7--------6--7-----
D|--7--------------------------------8-----------------------9--7h8p7p6h7-----------7-----------
A|----------------------------------------------------------------------------------------------
E|----------------------------------------------------------------------------------------------



E|-----------6--5-----------------------------------12----------------------------------------------
B|--5--6--8--------8--6--5-------------6--8--9--10------15------------------------------------------
G|--------------------------7h9p7p6h7-----------------------14--13--12----------12------------------
D|----------------------------------------------------------------------15--14------15--14--12--11--
A|--------------------------------------------------------------------------------------------------
E|--------------------------------------------------------------------------------------------------



E|--------------------12------------------5------------------------------5--
B|------------------------15-----5--6--8-----8--6--5h6p5--------------------
G|------12--15p13h14----------7---------------------------7--6--5--4--------
D|--14----------------------------------------------------------------8-----
A|--------------------------------------------------------------------------
E|--------------------------------------------------------------------------
http://www.guitartabcreator.com
Guitar Tab Creator is intended to store guitar tab created through the tool. It currently does not support in-line text editing. Any text you place in here will be lost. If you need to comment on your tab, please use the "Tab Notes" section located below.